ISO-10303-21;
HEADER;
FILE_DESCRIPTION (( 'STEP AP214' ),
    '1' );
FILE_NAME ('1147114.stp',
    '2021-08-24T07:20:47',
    ( '' ),
    ( '' ),
    'SwSTEP 2.0',
    'SolidWorks 2020',
    '' );
FILE_SCHEMA (( 'AUTOMOTIVE_DESIGN' ));
ENDSEC;

DATA;
#1 = DIRECTION ( 'NONE',  ( -9.912705577010325549E-17, 1.000000000000000000, -0.000000000000000000 ) ) ;
#2 = PLANE ( 'NONE',  #340 ) ;
#3 = PRESENTATION_LAYER_ASSIGNMENT (  '', '', ( #213 ) ) ;
#4 = EDGE_CURVE ( 'NONE', #51, #189, #334, .T. ) ;
#5 = DIRECTION ( 'NONE',  ( 0.1736481776669312749, -0.000000000000000000, 0.9848077530122079093 ) ) ;
#6 = VERTEX_POINT ( 'NONE', #363 ) ;
#7 = PLANE ( 'NONE',  #112 ) ;
#8 = PLANE ( 'NONE',  #82 ) ;
#9 = EDGE_LOOP ( 'NONE', ( #218, #116, #195, #200 ) ) ;
#10 = SURFACE_STYLE_FILL_AREA ( #259 ) ;
#11 = VECTOR ( 'NONE', #110, 1000.000000000000000 ) ;
#12 = VERTEX_POINT ( 'NONE', #150 ) ;
#13 = DIRECTION ( 'NONE',  ( 1.000000000000000000, 0.000000000000000000, 0.000000000000000000 ) ) ;
#14 = DIRECTION ( 'NONE',  ( -0.9535826651341416937, -0.3011313679370973273, 0.000000000000000000 ) ) ;
#15 =( NAMED_UNIT ( * ) SI_UNIT ( $, .STERADIAN. ) SOLID_ANGLE_UNIT ( ) );
#16 = FACE_OUTER_BOUND ( 'NONE', #77, .T. ) ;
#17 = DIRECTION ( 'NONE',  ( -9.912705577010325549E-17, 1.000000000000000000, -0.000000000000000000 ) ) ;
#18 = CARTESIAN_POINT ( 'NONE',  ( 17.50000000000000000, 10.00000000000000000, 8.500000000000000000 ) ) ;
#19 = ORIENTED_EDGE ( 'NONE', *, *, #152, .F. ) ;
#20 = EDGE_CURVE ( 'NONE', #98, #51, #303, .T. ) ;
#21 =( LENGTH_UNIT ( ) NAMED_UNIT ( * ) SI_UNIT ( .MILLI., .METRE. ) );
#22 = EDGE_LOOP ( 'NONE', ( #301, #229, #333, #327, #287, #143, #212, #165 ) ) ;
#23 = ORIENTED_EDGE ( 'NONE', *, *, #172, .T. ) ;
#24 = ADVANCED_FACE ( 'NONE', ( #25 ), #136, .F. ) ;
#25 = FACE_OUTER_BOUND ( 'NONE', #342, .T. ) ;
#26 = CIRCLE ( 'NONE', #73, 4.500000000000000000 ) ;
#27 = PRESENTATION_LAYER_ASSIGNMENT (  '', '', ( #188 ) ) ;
#28 = EDGE_CURVE ( 'NONE', #185, #147, #91, .T. ) ;
#29 = FACE_OUTER_BOUND ( 'NONE', #219, .T. ) ;
#30 = EDGE_CURVE ( 'NONE', #35, #6, #311, .T. ) ;
#31 = LINE ( 'NONE', #169, #45 ) ;
#32 = CARTESIAN_POINT ( 'NONE',  ( 17.50000000000000000, 2.168404344971008868E-16, 8.500000000000000000 ) ) ;
#33 = EDGE_CURVE ( 'NONE', #101, #62, #31, .T. ) ;
#34 = DIRECTION ( 'NONE',  ( -0.000000000000000000, 0.000000000000000000, 1.000000000000000000 ) ) ;
#35 = VERTEX_POINT ( 'NONE', #60 ) ;
#36 = LINE ( 'NONE', #319, #243 ) ;
#37 = DIRECTION ( 'NONE',  ( 0.000000000000000000, 1.000000000000000000, 0.000000000000000000 ) ) ;
#38 = APPLICATION_CONTEXT ( 'automotive_design' ) ;
#39 = ORIENTED_EDGE ( 'NONE', *, *, #105, .T. ) ;
#40 = CARTESIAN_POINT ( 'NONE',  ( -8.000000000000000000, 2.168404344971008868E-16, -8.500000000000000000 ) ) ;
#41 = AXIS2_PLACEMENT_3D ( 'NONE', #253, #115, #228 ) ;
#42 = DIRECTION ( 'NONE',  ( -0.1736481776669314692, -0.000000000000000000, -0.9848077530122079093 ) ) ;
#43 = ADVANCED_FACE ( 'NONE', ( #113 ), #7, .F. ) ;
#44 = DIRECTION ( 'NONE',  ( 1.000000000000000000, 0.000000000000000000, -0.000000000000000000 ) ) ;
#45 = VECTOR ( 'NONE', #318, 1000.000000000000000 ) ;
#46 = CARTESIAN_POINT ( 'NONE',  ( -8.000000000000000000, 3.000000000000000000, 8.500000000000000000 ) ) ;
#47 = DIRECTION ( 'NONE',  ( -0.000000000000000000, -0.000000000000000000, -1.000000000000000000 ) ) ;
#48 = FACE_OUTER_BOUND ( 'NONE', #108, .T. ) ;
#49 = DIRECTION ( 'NONE',  ( -1.000000000000000000, 0.000000000000000000, 0.000000000000000000 ) ) ;
#50 = ORIENTED_EDGE ( 'NONE', *, *, #332, .T. ) ;
#51 = VERTEX_POINT ( 'NONE', #230 ) ;
#52 = EDGE_LOOP ( 'NONE', ( #19, #75, #329, #203, #247, #361, #365, #271 ) ) ;
#53 = ORIENTED_EDGE ( 'NONE', *, *, #28, .F. ) ;
#54 = PRODUCT_DEFINITION_CONTEXT ( 'detailed design', #192, 'design' ) ;
#55 = VECTOR ( 'NONE', #47, 1000.000000000000000 ) ;
#56 =( GEOMETRIC_REPRESENTATION_CONTEXT ( 3 ) GLOBAL_UNCERTAINTY_ASSIGNED_CONTEXT ( ( #211 ) ) GLOBAL_UNIT_ASSIGNED_CONTEXT ( ( #120, #351, #15 ) ) REPRESENTATION_CONTEXT ( 'NONE', 'WORKASPACE' ) );
#57 = CARTESIAN_POINT ( 'NONE',  ( -8.000000000000000000, 2.168404344971008868E-16, 8.500000000000000000 ) ) ;
#58 = EDGE_CURVE ( 'NONE', #157, #138, #256, .T. ) ;
#59 = EDGE_CURVE ( 'NONE', #98, #163, #63, .T. ) ;
#60 = CARTESIAN_POINT ( 'NONE',  ( 14.50244132795608465, 0.9465974753822894439, -8.500000000000000000 ) ) ;
#61 = PLANE ( 'NONE',  #41 ) ;
#62 = VERTEX_POINT ( 'NONE', #285 ) ;
#63 = LINE ( 'NONE', #201, #164 ) ;
#64 = CARTESIAN_POINT ( 'NONE',  ( 17.50000000000000000, 10.00000000000000178, 8.500000000000000000 ) ) ;
#65 = EDGE_LOOP ( 'NONE', ( #50 ) ) ;
#66 = LINE ( 'NONE', #202, #359 ) ;
#67 = LINE ( 'NONE', #127, #262 ) ;
#68 = DIRECTION ( 'NONE',  ( 1.000000000000000000, 0.000000000000000000, 0.000000000000000000 ) ) ;
#69 = CARTESIAN_POINT ( 'NONE',  ( 0.000000000000000000, 10.00000000000000000, 5.944591164848680122E-16 ) ) ;
#70 = DIRECTION ( 'NONE',  ( 0.000000000000000000, 0.000000000000000000, 1.000000000000000000 ) ) ;
#71 = SURFACE_STYLE_USAGE ( .BOTH. , #181 ) ;
#72 = FILL_AREA_STYLE_COLOUR ( '', #274 ) ;
#73 = AXIS2_PLACEMENT_3D ( 'NONE', #210, #123, #74 ) ;
#74 = DIRECTION ( 'NONE',  ( 0.000000000000000000, 0.000000000000000000, -1.000000000000000000 ) ) ;
#75 = ORIENTED_EDGE ( 'NONE', *, *, #30, .F. ) ;
#76 = CARTESIAN_POINT ( 'NONE',  ( 0.000000000000000000, 17.00000000000000000, 5.944591164848680122E-16 ) ) ;
#77 = EDGE_LOOP ( 'NONE', ( #216, #362, #53, #119 ) ) ;
#78 = AXIS2_PLACEMENT_3D ( 'NONE', #283, #34, #310 ) ;
#79 = CARTESIAN_POINT ( 'NONE',  ( 17.50000949367015224, -2.998001100545419866E-06, 8.500053841278930378 ) ) ;
#80 = ORIENTED_EDGE ( 'NONE', *, *, #33, .T. ) ;
#81 = CARTESIAN_POINT ( 'NONE',  ( -17.50000000000000000, 2.168404344971008868E-16, -8.500000000000000000 ) ) ;
#82 = AXIS2_PLACEMENT_3D ( 'NONE', #205, #349, #281 ) ;
#83 = VECTOR ( 'NONE', #321, 1000.000000000000000 ) ;
#84 = LINE ( 'NONE', #199, #331 ) ;
#85 = EDGE_CURVE ( 'NONE', #101, #157, #36, .T. ) ;
#86 = FACE_OUTER_BOUND ( 'NONE', #197, .T. ) ;
#87 = VERTEX_POINT ( 'NONE', #114 ) ;
#88 = DIRECTION ( 'NONE',  ( -0.000000000000000000, 0.000000000000000000, 1.000000000000000000 ) ) ;
#89 = CARTESIAN_POINT ( 'NONE',  ( 17.50000000000000000, 10.00000000000000000, -8.500000000000000000 ) ) ;
#90 = ORIENTED_EDGE ( 'NONE', *, *, #353, .T. ) ;
#91 = LINE ( 'NONE', #251, #336 ) ;
#92 = CARTESIAN_POINT ( 'NONE',  ( 8.000000000000000000, 3.000000000000000000, -8.500000000000000000 ) ) ;
#93 = CARTESIAN_POINT ( 'NONE',  ( -17.50000000000000000, 9.999999999999998224, -8.500000000000000000 ) ) ;
#94 = DIRECTION ( 'NONE',  ( 1.000000000000000000, 0.000000000000000000, 0.000000000000000000 ) ) ;
#95 = CARTESIAN_POINT ( 'NONE',  ( 8.000000000000000000, 3.000000000000000000, 8.500000000000000000 ) ) ;
#96 =( NAMED_UNIT ( * ) SI_UNIT ( $, .STERADIAN. ) SOLID_ANGLE_UNIT ( ) );
#97 = PLANE ( 'NONE',  #194 ) ;
#98 = VERTEX_POINT ( 'NONE', #118 ) ;
#99 = MECHANICAL_DESIGN_GEOMETRIC_PRESENTATION_REPRESENTATION (  '', ( #213 ), #306 ) ;
#100 = FACE_BOUND ( 'NONE', #65, .T. ) ;
#101 = VERTEX_POINT ( 'NONE', #174 ) ;
#102 = FACE_OUTER_BOUND ( 'NONE', #258, .T. ) ;
#103 = ORIENTED_EDGE ( 'NONE', *, *, #261, .F. ) ;
#104 = AXIS2_PLACEMENT_3D ( 'NONE', #250, #223, #339 ) ;
#105 = EDGE_CURVE ( 'NONE', #62, #300, #66, .T. ) ;
#106 = EDGE_LOOP ( 'NONE', ( #242 ) ) ;
#107 = ADVANCED_FACE ( 'NONE', ( #315 ), #2, .F. ) ;
#108 = EDGE_LOOP ( 'NONE', ( #103, #111, #307, #313 ) ) ;
#109 = EDGE_CURVE ( 'NONE', #300, #35, #141, .T. ) ;
#110 = DIRECTION ( 'NONE',  ( 0.000000000000000000, 1.000000000000000000, 0.000000000000000000 ) ) ;
#111 = ORIENTED_EDGE ( 'NONE', *, *, #278, .F. ) ;
#112 = AXIS2_PLACEMENT_3D ( 'NONE', #145, #88, #173 ) ;
#113 = FACE_OUTER_BOUND ( 'NONE', #52, .T. ) ;
#114 = CARTESIAN_POINT ( 'NONE',  ( -14.50244132795607754, 9.999999999999998224, 8.500000000000000000 ) ) ;
#115 = DIRECTION ( 'NONE',  ( -1.000000000000000000, 0.000000000000000000, 0.000000000000000000 ) ) ;
#116 = ORIENTED_EDGE ( 'NONE', *, *, #215, .F. ) ;
#117 = DIRECTION ( 'NONE',  ( 0.9848077530122079093, 9.762109305567119065E-17, -0.1736481776669314692 ) ) ;
#118 = CARTESIAN_POINT ( 'NONE',  ( -17.50000000000000000, 2.168404344971008868E-16, -8.500000000000000000 ) ) ;
#119 = ORIENTED_EDGE ( 'NONE', *, *, #347, .T. ) ;
#120 =( LENGTH_UNIT ( ) NAMED_UNIT ( * ) SI_UNIT ( .MILLI., .METRE. ) );
#121 = CIRCLE ( 'NONE', #308, 4.500000000000000000 ) ;
#122 =( NAMED_UNIT ( * ) PLANE_ANGLE_UNIT ( ) SI_UNIT ( $, .RADIAN. ) );
#123 = DIRECTION ( 'NONE',  ( 0.000000000000000000, -1.000000000000000000, 0.000000000000000000 ) ) ;
#124 = PRODUCT_DEFINITION ( 'UNKNOWN', '', #191, #54 ) ;
#125 = FACE_OUTER_BOUND ( 'NONE', #358, .T. ) ;
#126 = VERTEX_POINT ( 'NONE', #64 ) ;
#127 = CARTESIAN_POINT ( 'NONE',  ( -17.50000000000000000, 10.00000000000000000, -8.500000000000000000 ) ) ;
#128 = CYLINDRICAL_SURFACE ( 'NONE', #294, 4.500000000000000000 ) ;
#129 = EDGE_LOOP ( 'NONE', ( #90, #187, #171, #248 ) ) ;
#130 = VECTOR ( 'NONE', #156, 1000.000000000000114 ) ;
#131 = CARTESIAN_POINT ( 'NONE',  ( -8.000000000000000000, 2.168404344971008868E-16, -8.500000000000000000 ) ) ;
#132 = ORIENTED_EDGE ( 'NONE', *, *, #347, .F. ) ;
#133 = ADVANCED_FACE ( 'NONE', ( #227, #257 ), #8, .F. ) ;
#134 = CARTESIAN_POINT ( 'NONE',  ( -8.000000000000000000, 3.000000000000000000, -8.500000000000000000 ) ) ;
#135 = COLOUR_RGB ( '',0.7529411764705882248, 0.7529411764705882248, 0.7529411764705882248 ) ;
#136 = PLANE ( 'NONE',  #282 ) ;
#137 = VECTOR ( 'NONE', #151, 999.9999999999998863 ) ;
#138 = VERTEX_POINT ( 'NONE', #32 ) ;
#139 = PLANE ( 'NONE',  #104 ) ;
#140 = DIRECTION ( 'NONE',  ( -0.1736481776669314692, 0.000000000000000000, -0.9848077530122079093 ) ) ;
#141 = LINE ( 'NONE', #92, #225 ) ;
#142 = LINE ( 'NONE', #368, #277 ) ;
#143 = ORIENTED_EDGE ( 'NONE', *, *, #58, .T. ) ;
#144 = VECTOR ( 'NONE', #49, 1000.000000000000000 ) ;
#145 = CARTESIAN_POINT ( 'NONE',  ( 0.000000000000000000, 0.000000000000000000, -8.500000000000000000 ) ) ;
#146 = DIRECTION ( 'NONE',  ( 0.000000000000000000, 1.000000000000000000, 0.000000000000000000 ) ) ;
#147 = VERTEX_POINT ( 'NONE', #252 ) ;
#148 = LINE ( 'NONE', #260, #149 ) ;
#149 = VECTOR ( 'NONE', #94, 1000.000000000000000 ) ;
#150 = CARTESIAN_POINT ( 'NONE',  ( 0.000000000000000000, 10.00000000000000000, -4.499999999999999112 ) ) ;
#151 = DIRECTION ( 'NONE',  ( 0.9535826651341416937, 0.3011313679370973273, 0.000000000000000000 ) ) ;
#152 = EDGE_CURVE ( 'NONE', #6, #299, #344, .T. ) ;
#153 = CARTESIAN_POINT ( 'NONE',  ( -14.50244132795607577, -0.001000000000002734812, 8.500000000000000000 ) ) ;
#154 = FILL_AREA_STYLE ('',( #72 ) ) ;
#155 = DIRECTION ( 'NONE',  ( 0.000000000000000000, -1.000000000000000000, 0.000000000000000000 ) ) ;
#156 = DIRECTION ( 'NONE',  ( -0.1733876835661139204, 0.05475400533666755637, -0.9833304175541246472 ) ) ;
#157 = VERTEX_POINT ( 'NONE', #95 ) ;
#158 = MECHANICAL_DESIGN_GEOMETRIC_PRESENTATION_REPRESENTATION (  '', ( #188 ), #56 ) ;
#159 =( NAMED_UNIT ( * ) SI_UNIT ( $, .STERADIAN. ) SOLID_ANGLE_UNIT ( ) );
#160 = ORIENTED_EDGE ( 'NONE', *, *, #364, .T. ) ;
#161 = ADVANCED_FACE ( 'NONE', ( #16 ), #97, .F. ) ;
#162 = ORIENTED_EDGE ( 'NONE', *, *, #85, .F. ) ;
#163 = VERTEX_POINT ( 'NONE', #326 ) ;
#164 = VECTOR ( 'NONE', #314, 1000.000000000000227 ) ;
#165 = ORIENTED_EDGE ( 'NONE', *, *, #261, .T. ) ;
#166 = VECTOR ( 'NONE', #13, 1000.000000000000000 ) ;
#167 = ADVANCED_FACE ( 'NONE', ( #125 ), #323, .F. ) ;
#168 = LINE ( 'NONE', #57, #245 ) ;
#169 = CARTESIAN_POINT ( 'NONE',  ( 8.000000000000000000, 2.168404344971008868E-16, 8.500000000000000000 ) ) ;
#170 = FACE_OUTER_BOUND ( 'NONE', #22, .T. ) ;
#171 = ORIENTED_EDGE ( 'NONE', *, *, #366, .F. ) ;
#172 = EDGE_CURVE ( 'NONE', #297, #297, #26, .T. ) ;
#173 = DIRECTION ( 'NONE',  ( 1.000000000000000000, 0.000000000000000000, 0.000000000000000000 ) ) ;
#174 = CARTESIAN_POINT ( 'NONE',  ( 8.000000000000000000, 2.168404344971008868E-16, 8.500000000000000000 ) ) ;
#175 = ORIENTED_EDGE ( 'NONE', *, *, #30, .T. ) ;
#176 = CARTESIAN_POINT ( 'NONE',  ( 8.000000000000000000, 3.000000000000000000, 8.500000000000000000 ) ) ;
#177 = LINE ( 'NONE', #206, #55 ) ;
#178 = VECTOR ( 'NONE', #1, 1000.000000000000000 ) ;
#179 = EDGE_CURVE ( 'NONE', #163, #185, #298, .T. ) ;
#180 = AXIS2_PLACEMENT_3D ( 'NONE', #18, #214, #235 ) ;
#181 = SURFACE_SIDE_STYLE ('',( #10 ) ) ;
#182 = SURFACE_STYLE_USAGE ( .BOTH. , #355 ) ;
#183 = VECTOR ( 'NONE', #226, 999.9999999999998863 ) ;
#184 = CARTESIAN_POINT ( 'NONE',  ( -17.50000000000000000, 2.168404344971008868E-16, 8.500000000000000000 ) ) ;
#185 = VERTEX_POINT ( 'NONE', #46 ) ;
#186 = MANIFOLD_SOLID_BREP ( 'Bohrung', #272 ) ;
#187 = ORIENTED_EDGE ( 'NONE', *, *, #33, .F. ) ;
#188 = STYLED_ITEM ( 'NONE', ( #293 ), #249 ) ;
#189 = VERTEX_POINT ( 'NONE', #131 ) ;
#190 = DIRECTION ( 'NONE',  ( 0.9535826651341416937, 0.3011313679370973273, 0.000000000000000000 ) ) ;
#191 = PRODUCT_DEFINITION_FORMATION_WITH_SPECIFIED_SOURCE ( 'ANY', '', #288, .NOT_KNOWN. ) ;
#192 = APPLICATION_CONTEXT ( 'automotive_design' ) ;
#193 = ORIENTED_EDGE ( 'NONE', *, *, #20, .T. ) ;
#194 = AXIS2_PLACEMENT_3D ( 'NONE', #209, #44, #266 ) ;
#195 = ORIENTED_EDGE ( 'NONE', *, *, #58, .F. ) ;
#196 = ADVANCED_FACE ( 'NONE', ( #102, #328 ), #128, .F. ) ;
#197 = EDGE_LOOP ( 'NONE', ( #39, #269, #162, #80 ) ) ;
#198 = PLANE ( 'NONE',  #78 ) ;
#199 = CARTESIAN_POINT ( 'NONE',  ( 17.50000000000000000, 10.00000000000000000, 8.500000000000000000 ) ) ;
#200 = ORIENTED_EDGE ( 'NONE', *, *, #305, .T. ) ;
#201 = CARTESIAN_POINT ( 'NONE',  ( -17.50000949367015224, -2.998001100200042181E-06, -8.500053841278930378 ) ) ;
#202 = CARTESIAN_POINT ( 'NONE',  ( 8.000000000000000000, 2.168404344971008868E-16, -8.500000000000000000 ) ) ;
#203 = ORIENTED_EDGE ( 'NONE', *, *, #105, .F. ) ;
#204 = CARTESIAN_POINT ( 'NONE',  ( 14.50244132795608287, -0.0009999999999992653654, -8.500000000000000000 ) ) ;
#205 = CARTESIAN_POINT ( 'NONE',  ( -8.000000000000000000, 2.168404344971008868E-16, 8.500000000000000000 ) ) ;
#206 = CARTESIAN_POINT ( 'NONE',  ( -8.000000000000000000, 3.000000000000000000, 8.500000000000000000 ) ) ;
#207 = APPLICATION_PROTOCOL_DEFINITION ( 'draft international standard', 'automotive_design', 1998, #38 ) ;
#208 = CARTESIAN_POINT ( 'NONE',  ( 0.000000000000000000, 0.000000000000000000, -4.499999999999999112 ) ) ;
#209 = CARTESIAN_POINT ( 'NONE',  ( -8.000000000000000000, 3.000000000000000000, 8.500000000000000000 ) ) ;
#210 = CARTESIAN_POINT ( 'NONE',  ( 0.000000000000000000, 0.000000000000000000, 5.944591164848680122E-16 ) ) ;
#211 = UNCERTAINTY_MEASURE_WITH_UNIT (LENGTH_MEASURE( 1.000000000000000082E-05 ), #120, 'distance_accuracy_value', 'NONE');
#212 = ORIENTED_EDGE ( 'NONE', *, *, #241, .T. ) ;
#213 = STYLED_ITEM ( 'NONE', ( #295 ), #186 ) ;
#214 = DIRECTION ( 'NONE',  ( 0.000000000000000000, -1.000000000000000000, 0.000000000000000000 ) ) ;
#215 = EDGE_CURVE ( 'NONE', #138, #35, #360, .T. ) ;
#216 = ORIENTED_EDGE ( 'NONE', *, *, #4, .T. ) ;
#217 = DIRECTION ( 'NONE',  ( -0.000000000000000000, -1.000000000000000000, -0.000000000000000000 ) ) ;
#218 = ORIENTED_EDGE ( 'NONE', *, *, #109, .T. ) ;
#219 = EDGE_LOOP ( 'NONE', ( #224, #175, #254, #337 ) ) ;
#220 = ADVANCED_FACE ( 'NONE', ( #100, #48 ), #268, .F. ) ;
#221 = ORIENTED_EDGE ( 'NONE', *, *, #59, .T. ) ;
#222 = ADVANCED_FACE ( 'NONE', ( #29 ), #139, .F. ) ;
#223 = DIRECTION ( 'NONE',  ( -0.9848077530122079093, -9.762109305567119065E-17, 0.1736481776669313026 ) ) ;
#224 = ORIENTED_EDGE ( 'NONE', *, *, #215, .T. ) ;
#225 = VECTOR ( 'NONE', #289, 999.9999999999998863 ) ;
#226 = DIRECTION ( 'NONE',  ( 0.9535826651341416937, -0.3011313679370973273, 0.000000000000000000 ) ) ;
#227 = FACE_BOUND ( 'NONE', #316, .T. ) ;
#228 = DIRECTION ( 'NONE',  ( 0.000000000000000000, 0.000000000000000000, 1.000000000000000000 ) ) ;
#229 = ORIENTED_EDGE ( 'NONE', *, *, #179, .T. ) ;
#230 = CARTESIAN_POINT ( 'NONE',  ( -8.000000000000000000, 3.000000000000000000, -8.500000000000000000 ) ) ;
#231 = DIRECTION ( 'NONE',  ( -0.9535826651341416937, 0.3011313679370973273, 0.000000000000000000 ) ) ;
#232 = PRODUCT_DEFINITION_SHAPE ( 'NONE', 'NONE',  #124 ) ;
#233 = VECTOR ( 'NONE', #42, 1000.000000000000114 ) ;
#234 = ADVANCED_FACE ( 'NONE', ( #86 ), #61, .F. ) ;
#235 = DIRECTION ( 'NONE',  ( 0.000000000000000000, -0.000000000000000000, -1.000000000000000000 ) ) ;
#236 = SHAPE_DEFINITION_REPRESENTATION ( #232, #249 ) ;
#237 = CARTESIAN_POINT ( 'NONE',  ( 8.000000000000000000, 3.000000000000000000, 8.500000000000000000 ) ) ;
#238 = CARTESIAN_POINT ( 'NONE',  ( -17.50000000000000000, 2.168404344971008868E-16, 8.500000000000000000 ) ) ;
#239 = ORIENTED_EDGE ( 'NONE', *, *, #179, .F. ) ;
#240 = AXIS2_PLACEMENT_3D ( 'NONE', #317, #70, #68 ) ;
#241 = EDGE_CURVE ( 'NONE', #138, #126, #341, .T. ) ;
#242 = ORIENTED_EDGE ( 'NONE', *, *, #332, .F. ) ;
#243 = VECTOR ( 'NONE', #37, 1000.000000000000000 ) ;
#244 =( NAMED_UNIT ( * ) PLANE_ANGLE_UNIT ( ) SI_UNIT ( $, .RADIAN. ) );
#245 = VECTOR ( 'NONE', #279, 1000.000000000000000 ) ;
#246 = DIRECTION ( 'NONE',  ( 0.000000000000000000, -1.000000000000000000, 0.000000000000000000 ) ) ;
#247 = ORIENTED_EDGE ( 'NONE', *, *, #353, .F. ) ;
#248 = ORIENTED_EDGE ( 'NONE', *, *, #296, .T. ) ;
#249 = ADVANCED_BREP_SHAPE_REPRESENTATION ( '1147114', ( #186, #240 ), #350 ) ;
#250 = CARTESIAN_POINT ( 'NONE',  ( 17.50000000000000000, -0.0009999999999992653654, 8.500000000000000000 ) ) ;
#251 = CARTESIAN_POINT ( 'NONE',  ( -8.000000000000000000, 3.000000000000000000, 8.500000000000000000 ) ) ;
#252 = CARTESIAN_POINT ( 'NONE',  ( -8.000000000000000000, 2.168404344971008868E-16, 8.500000000000000000 ) ) ;
#253 = CARTESIAN_POINT ( 'NONE',  ( 8.000000000000000000, 2.168404344971008868E-16, 8.500000000000000000 ) ) ;
#254 = ORIENTED_EDGE ( 'NONE', *, *, #278, .T. ) ;
#255 = PRODUCT_CONTEXT ( 'NONE', #38, 'mechanical' ) ;
#256 = LINE ( 'NONE', #280, #183 ) ;
#257 = FACE_OUTER_BOUND ( 'NONE', #129, .T. ) ;
#258 = EDGE_LOOP ( 'NONE', ( #23 ) ) ;
#259 = FILL_AREA_STYLE ('',( #324 ) ) ;
#260 = CARTESIAN_POINT ( 'NONE',  ( -8.000000000000000000, 2.168404344971008868E-16, 8.500000000000000000 ) ) ;
#261 = EDGE_CURVE ( 'NONE', #126, #87, #84, .T. ) ;
#262 = VECTOR ( 'NONE', #155, 1000.000000000000000 ) ;
#263 = LINE ( 'NONE', #93, #233 ) ;
#264 = SURFACE_STYLE_FILL_AREA ( #154 ) ;
#265 =( LENGTH_UNIT ( ) NAMED_UNIT ( * ) SI_UNIT ( .MILLI., .METRE. ) );
#266 = DIRECTION ( 'NONE',  ( -0.000000000000000000, 0.000000000000000000, -1.000000000000000000 ) ) ;
#267 = LINE ( 'NONE', #153, #291 ) ;
#268 = PLANE ( 'NONE',  #180 ) ;
#269 = ORIENTED_EDGE ( 'NONE', *, *, #305, .F. ) ;
#270 = ORIENTED_EDGE ( 'NONE', *, *, #309, .T. ) ;
#271 = ORIENTED_EDGE ( 'NONE', *, *, #302, .F. ) ;
#272 = CLOSED_SHELL ( 'NONE', ( #161, #133, #234, #107, #220, #167, #275, #43, #24, #222, #196 ) ) ;
#273 = CARTESIAN_POINT ( 'NONE',  ( -17.50000000000000000, 10.00000000000000000, -8.500000000000000000 ) ) ;
#274 = COLOUR_RGB ( '',0.7529411764705882248, 0.7529411764705882248, 0.7529411764705882248 ) ;
#275 = ADVANCED_FACE ( 'NONE', ( #170 ), #198, .T. ) ;
#276 = ORIENTED_EDGE ( 'NONE', *, *, #302, .T. ) ;
#277 = VECTOR ( 'NONE', #5, 1000.000000000000114 ) ;
#278 = EDGE_CURVE ( 'NONE', #6, #126, #142, .T. ) ;
#279 = DIRECTION ( 'NONE',  ( -0.000000000000000000, -0.000000000000000000, -1.000000000000000000 ) ) ;
#280 = CARTESIAN_POINT ( 'NONE',  ( 8.000000000000000000, 3.000000000000000000, 8.500000000000000000 ) ) ;
#281 = DIRECTION ( 'NONE',  ( 0.000000000000000000, -0.000000000000000000, 1.000000000000000000 ) ) ;
#282 = AXIS2_PLACEMENT_3D ( 'NONE', #343, #117, #140 ) ;
#283 = CARTESIAN_POINT ( 'NONE',  ( 0.000000000000000000, 0.000000000000000000, 8.500000000000000000 ) ) ;
#284 = ORIENTED_EDGE ( 'NONE', *, *, #59, .F. ) ;
#285 = CARTESIAN_POINT ( 'NONE',  ( 8.000000000000000000, 2.168404344971008868E-16, -8.500000000000000000 ) ) ;
#286 = DIRECTION ( 'NONE',  ( 0.3011313679370973273, 0.9535826651341416937, -0.000000000000000000 ) ) ;
#287 = ORIENTED_EDGE ( 'NONE', *, *, #85, .T. ) ;
#288 = PRODUCT ( '1147114', '1147114', '', ( #255 ) ) ;
#289 = DIRECTION ( 'NONE',  ( 0.9535826651341416937, -0.3011313679370973273, 0.000000000000000000 ) ) ;
#290 = LINE ( 'NONE', #40, #166 ) ;
#291 = VECTOR ( 'NONE', #17, 1000.000000000000000 ) ;
#292 = APPLICATION_PROTOCOL_DEFINITION ( 'draft international standard', 'automotive_design', 1998, #192 ) ;
#293 = PRESENTATION_STYLE_ASSIGNMENT (( #71 ) ) ;
#294 = AXIS2_PLACEMENT_3D ( 'NONE', #76, #217, #330 ) ;
#295 = PRESENTATION_STYLE_ASSIGNMENT (( #182 ) ) ;
#296 = EDGE_CURVE ( 'NONE', #147, #189, #168, .T. ) ;
#297 = VERTEX_POINT ( 'NONE', #208 ) ;
#298 = LINE ( 'NONE', #184, #137 ) ;
#299 = VERTEX_POINT ( 'NONE', #273 ) ;
#300 = VERTEX_POINT ( 'NONE', #352 ) ;
#301 = ORIENTED_EDGE ( 'NONE', *, *, #364, .F. ) ;
#302 = EDGE_CURVE ( 'NONE', #299, #98, #67, .T. ) ;
#303 = LINE ( 'NONE', #81, #338 ) ;
#304 = UNCERTAINTY_MEASURE_WITH_UNIT (LENGTH_MEASURE( 1.000000000000000082E-05 ), #265, 'distance_accuracy_value', 'NONE');
#305 = EDGE_CURVE ( 'NONE', #157, #300, #354, .T. ) ;
#306 =( GEOMETRIC_REPRESENTATION_CONTEXT ( 3 ) GLOBAL_UNCERTAINTY_ASSIGNED_CONTEXT ( ( #335 ) ) GLOBAL_UNIT_ASSIGNED_CONTEXT ( ( #21, #244, #159 ) ) REPRESENTATION_CONTEXT ( 'NONE', 'WORKASPACE' ) );
#307 = ORIENTED_EDGE ( 'NONE', *, *, #152, .T. ) ;
#308 = AXIS2_PLACEMENT_3D ( 'NONE', #69, #356, #320 ) ;
#309 = EDGE_CURVE ( 'NONE', #87, #299, #263, .T. ) ;
#310 = DIRECTION ( 'NONE',  ( 1.000000000000000000, 0.000000000000000000, 0.000000000000000000 ) ) ;
#311 = LINE ( 'NONE', #204, #178 ) ;
#312 = DIRECTION ( 'NONE',  ( -1.000000000000000000, 0.000000000000000000, 0.000000000000000000 ) ) ;
#313 = ORIENTED_EDGE ( 'NONE', *, *, #309, .F. ) ;
#314 = DIRECTION ( 'NONE',  ( 0.1733876835661140869, 0.05475400533666761188, 0.9833304175541246472 ) ) ;
#315 = FACE_OUTER_BOUND ( 'NONE', #9, .T. ) ;
#316 = EDGE_LOOP ( 'NONE', ( #346 ) ) ;
#317 = CARTESIAN_POINT ( 'NONE',  ( 0.000000000000000000, 0.000000000000000000, 0.000000000000000000 ) ) ;
#318 = DIRECTION ( 'NONE',  ( -0.000000000000000000, -0.000000000000000000, -1.000000000000000000 ) ) ;
#319 = CARTESIAN_POINT ( 'NONE',  ( 8.000000000000000000, 2.168404344971008868E-16, 8.500000000000000000 ) ) ;
#320 = DIRECTION ( 'NONE',  ( 0.000000000000000000, 0.000000000000000000, -1.000000000000000000 ) ) ;
#321 = DIRECTION ( 'NONE',  ( -0.000000000000000000, -0.000000000000000000, -1.000000000000000000 ) ) ;
#322 = PRODUCT_RELATED_PRODUCT_CATEGORY ( 'part', '', ( #288 ) ) ;
#323 = PLANE ( 'NONE',  #325 ) ;
#324 = FILL_AREA_STYLE_COLOUR ( '', #135 ) ;
#325 = AXIS2_PLACEMENT_3D ( 'NONE', #238, #357, #14 ) ;
#326 = CARTESIAN_POINT ( 'NONE',  ( -14.50244132795607754, 0.9465974753822919974, 8.500000000000000000 ) ) ;
#327 = ORIENTED_EDGE ( 'NONE', *, *, #366, .T. ) ;
#328 = FACE_OUTER_BOUND ( 'NONE', #106, .T. ) ;
#329 = ORIENTED_EDGE ( 'NONE', *, *, #109, .F. ) ;
#330 = DIRECTION ( 'NONE',  ( 0.000000000000000000, 0.000000000000000000, -1.000000000000000000 ) ) ;
#331 = VECTOR ( 'NONE', #312, 1000.000000000000000 ) ;
#332 = EDGE_CURVE ( 'NONE', #12, #12, #121, .T. ) ;
#333 = ORIENTED_EDGE ( 'NONE', *, *, #28, .T. ) ;
#334 = LINE ( 'NONE', #134, #367 ) ;
#335 = UNCERTAINTY_MEASURE_WITH_UNIT (LENGTH_MEASURE( 1.000000000000000082E-05 ), #21, 'distance_accuracy_value', 'NONE');
#336 = VECTOR ( 'NONE', #348, 1000.000000000000000 ) ;
#337 = ORIENTED_EDGE ( 'NONE', *, *, #241, .F. ) ;
#338 = VECTOR ( 'NONE', #190, 999.9999999999998863 ) ;
#339 = DIRECTION ( 'NONE',  ( 0.1736481776669313026, 0.000000000000000000, 0.9848077530122079093 ) ) ;
#340 = AXIS2_PLACEMENT_3D ( 'NONE', #176, #286, #231 ) ;
#341 = LINE ( 'NONE', #345, #11 ) ;
#342 = EDGE_LOOP ( 'NONE', ( #221, #160, #270, #276 ) ) ;
#343 = CARTESIAN_POINT ( 'NONE',  ( -17.50000000000000000, -0.001000000000002734812, -8.500000000000000000 ) ) ;
#344 = LINE ( 'NONE', #89, #144 ) ;
#345 = CARTESIAN_POINT ( 'NONE',  ( 17.50000000000000000, 2.168404344971008868E-16, 8.500000000000000000 ) ) ;
#346 = ORIENTED_EDGE ( 'NONE', *, *, #172, .F. ) ;
#347 = EDGE_CURVE ( 'NONE', #185, #51, #177, .T. ) ;
#348 = DIRECTION ( 'NONE',  ( 0.000000000000000000, -1.000000000000000000, 0.000000000000000000 ) ) ;
#349 = DIRECTION ( 'NONE',  ( 0.000000000000000000, 1.000000000000000000, 0.000000000000000000 ) ) ;
#350 =( GEOMETRIC_REPRESENTATION_CONTEXT ( 3 ) GLOBAL_UNCERTAINTY_ASSIGNED_CONTEXT ( ( #304 ) ) GLOBAL_UNIT_ASSIGNED_CONTEXT ( ( #265, #122, #96 ) ) REPRESENTATION_CONTEXT ( 'NONE', 'WORKASPACE' ) );
#351 =( NAMED_UNIT ( * ) PLANE_ANGLE_UNIT ( ) SI_UNIT ( $, .RADIAN. ) );
#352 = CARTESIAN_POINT ( 'NONE',  ( 8.000000000000000000, 3.000000000000000000, -8.500000000000000000 ) ) ;
#353 = EDGE_CURVE ( 'NONE', #189, #62, #290, .T. ) ;
#354 = LINE ( 'NONE', #237, #83 ) ;
#355 = SURFACE_SIDE_STYLE ('',( #264 ) ) ;
#356 = DIRECTION ( 'NONE',  ( 0.000000000000000000, -1.000000000000000000, 0.000000000000000000 ) ) ;
#357 = DIRECTION ( 'NONE',  ( -0.3011313679370973273, 0.9535826651341416937, 0.000000000000000000 ) ) ;
#358 = EDGE_LOOP ( 'NONE', ( #239, #284, #193, #132 ) ) ;
#359 = VECTOR ( 'NONE', #146, 1000.000000000000000 ) ;
#360 = LINE ( 'NONE', #79, #130 ) ;
#361 = ORIENTED_EDGE ( 'NONE', *, *, #4, .F. ) ;
#362 = ORIENTED_EDGE ( 'NONE', *, *, #296, .F. ) ;
#363 = CARTESIAN_POINT ( 'NONE',  ( 14.50244132795608110, 10.00000000000000178, -8.500000000000000000 ) ) ;
#364 = EDGE_CURVE ( 'NONE', #163, #87, #267, .T. ) ;
#365 = ORIENTED_EDGE ( 'NONE', *, *, #20, .F. ) ;
#366 = EDGE_CURVE ( 'NONE', #147, #101, #148, .T. ) ;
#367 = VECTOR ( 'NONE', #246, 1000.000000000000000 ) ;
#368 = CARTESIAN_POINT ( 'NONE',  ( 17.50000000000000000, 10.00000000000000178, 8.500000000000000000 ) ) ;
ENDSEC;
END-ISO-10303-21;
